ISO-10303-21;
HEADER;
FILE_DESCRIPTION (( 'STEP AP203' ),
    '1' );
FILE_NAME ('BK7-NPBSC-20-1200-1600.STEP',
    '2020-12-22T02:11:08',
    ( '' ),
    ( '' ),
    'SwSTEP 2.0',
    'SolidWorks 2020',
    '' );
FILE_SCHEMA (( 'CONFIG_CONTROL_DESIGN' ));
ENDSEC;

DATA;
#1 = PLANE ( 'NONE',  #69 ) ;
#2 = VERTEX_POINT ( 'NONE', #226 ) ;
#3 = ORIENTED_EDGE ( 'NONE', *, *, #87, .T. ) ;
#4 = CARTESIAN_POINT ( 'NONE',  ( -9.999999999999998224, -10.00000000000000000, -10.00000000000000000 ) ) ;
#5 = ORIENTED_EDGE ( 'NONE', *, *, #128, .T. ) ;
#6 = ADVANCED_FACE ( 'NONE', ( #145 ), #246, .T. ) ;
#7 = DIRECTION ( 'NONE',  ( -0.7071067811865475727, -0.7071067811865474617, 0.000000000000000000 ) ) ;
#8 = ADVANCED_BREP_SHAPE_REPRESENTATION ( 'BK7-NPBSC-20-1200-1600', ( #183, #291, #169 ), #171 ) ;
#9 = EDGE_LOOP ( 'NONE', ( #301, #131, #179, #41 ) ) ;
#10 = CARTESIAN_POINT ( 'NONE',  ( -10.00000000000000178, -9.999999999999996447, 10.00000000000000000 ) ) ;
#11 =( LENGTH_UNIT ( ) NAMED_UNIT ( * ) SI_UNIT ( .MILLI., .METRE. ) );
#12 = VERTEX_POINT ( 'NONE', #24 ) ;
#13 = PLANE ( 'NONE',  #213 ) ;
#14 = APPLICATION_CONTEXT ( 'configuration controlled 3d designs of mechanical parts and assemblies' ) ;
#15 = EDGE_CURVE ( 'NONE', #12, #83, #174, .T. ) ;
#16 = VECTOR ( 'NONE', #206, 1000.000000000000000 ) ;
#17 = APPROVAL_PERSON_ORGANIZATION ( #48, #34, #76 ) ;
#18 = APPROVAL_ROLE ( '' ) ;
#19 = DIRECTION ( 'NONE',  ( 1.000000000000000000, 0.000000000000000000, 0.000000000000000000 ) ) ;
#20 = PRODUCT_DEFINITION_FORMATION_WITH_SPECIFIED_SOURCE ( 'ANY', '', #81, .NOT_KNOWN. ) ;
#21 = SECURITY_CLASSIFICATION_LEVEL ( 'unclassified' ) ;
#22 = AXIS2_PLACEMENT_3D ( 'NONE', #283, #214, #306 ) ;
#23 = COORDINATED_UNIVERSAL_TIME_OFFSET ( 8, 0, .AHEAD. ) ;
#24 = CARTESIAN_POINT ( 'NONE',  ( 10.00000000000000178, -10.00000000000000000, -10.00000000000000000 ) ) ;
#25 = DIRECTION ( 'NONE',  ( -0.000000000000000000, 1.000000000000000000, -0.000000000000000000 ) ) ;
#26 = CALENDAR_DATE ( 2020, 22, 12 ) ;
#27 = DIRECTION ( 'NONE',  ( 0.000000000000000000, -0.000000000000000000, 1.000000000000000000 ) ) ;
#28 = CARTESIAN_POINT ( 'NONE',  ( -9.999999999999998224, -10.00000000000000000, 10.00000000000000000 ) ) ;
#29 = EDGE_CURVE ( 'NONE', #175, #31, #126, .T. ) ;
#30 = LINE ( 'NONE', #105, #242 ) ;
#31 = VERTEX_POINT ( 'NONE', #28 ) ;
#32 = APPLICATION_CONTEXT ( 'configuration controlled 3d designs of mechanical parts and assemblies' ) ;
#33 = DIRECTION ( 'NONE',  ( -0.000000000000000000, 0.000000000000000000, -1.000000000000000000 ) ) ;
#34 = APPROVAL ( #267, 'UNSPECIFIED' ) ;
#35 = DIRECTION ( 'NONE',  ( -0.000000000000000000, -0.000000000000000000, -1.000000000000000000 ) ) ;
#36 = ORIENTED_EDGE ( 'NONE', *, *, #51, .T. ) ;
#37 = LINE ( 'NONE', #212, #102 ) ;
#38 = DIRECTION ( 'NONE',  ( -0.000000000000000000, 0.000000000000000000, -1.000000000000000000 ) ) ;
#39 = LOCAL_TIME ( 10, 11, 8.000000000000000000, #117 ) ;
#40 = VECTOR ( 'NONE', #292, 1000.000000000000000 ) ;
#41 = ORIENTED_EDGE ( 'NONE', *, *, #200, .T. ) ;
#42 = PLANE ( 'NONE',  #273 ) ;
#43 = CARTESIAN_POINT ( 'NONE',  ( 10.00000000000000178, 9.999999999999998224, 10.00000000000000000 ) ) ;
#44 = ADVANCED_FACE ( 'NONE', ( #122 ), #1, .F. ) ;
#45 = DIRECTION ( 'NONE',  ( 2.220446049250313081E-16, 1.000000000000000000, 0.000000000000000000 ) ) ;
#46 = ADVANCED_FACE ( 'NONE', ( #253 ), #321, .T. ) ;
#47 = ORGANIZATION ( 'UNSPECIFIED', 'UNSPECIFIED', '' ) ;
#48 = PERSON_AND_ORGANIZATION ( #207, #47 ) ;
#49 = CLOSED_SHELL ( 'NONE', ( #44, #103, #134, #46, #85 ) ) ;
#50 = PERSON_AND_ORGANIZATION ( #207, #47 ) ;
#51 = EDGE_CURVE ( 'NONE', #141, #70, #276, .T. ) ;
#52 = CC_DESIGN_PERSON_AND_ORGANIZATION_ASSIGNMENT ( #190, #100, ( #20 ) ) ;
#53 = CARTESIAN_POINT ( 'NONE',  ( 10.00000000000000000, 10.00000000000000000, -10.00000000000000000 ) ) ;
#54 = EDGE_CURVE ( 'NONE', #175, #83, #30, .T. ) ;
#55 = AXIS2_PLACEMENT_3D ( 'NONE', #251, #27, #153 ) ;
#56 = APPROVAL_DATE_TIME ( #201, #278 ) ;
#57 = CC_DESIGN_PERSON_AND_ORGANIZATION_ASSIGNMENT ( #77, #250, ( #173 ) ) ;
#58 = LINE ( 'NONE', #151, #138 ) ;
#59 = APPROVAL_ROLE ( '' ) ;
#60 = ORIENTED_EDGE ( 'NONE', *, *, #205, .F. ) ;
#61 = VECTOR ( 'NONE', #132, 1000.000000000000000 ) ;
#62 = ORIENTED_EDGE ( 'NONE', *, *, #71, .T. ) ;
#63 = CARTESIAN_POINT ( 'NONE',  ( -9.999999999999998224, 10.00000000000000355, 10.00000000000000000 ) ) ;
#64 = EDGE_LOOP ( 'NONE', ( #67, #244, #154, #152 ) ) ;
#65 = FACE_OUTER_BOUND ( 'NONE', #9, .T. ) ;
#66 = FACE_OUTER_BOUND ( 'NONE', #277, .T. ) ;
#67 = ORIENTED_EDGE ( 'NONE', *, *, #268, .T. ) ;
#68 = DIRECTION ( 'NONE',  ( -0.000000000000000000, 1.000000000000000000, -0.000000000000000000 ) ) ;
#69 = AXIS2_PLACEMENT_3D ( 'NONE', #172, #229, #127 ) ;
#70 = VERTEX_POINT ( 'NONE', #106 ) ;
#71 = EDGE_CURVE ( 'NONE', #114, #211, #293, .T. ) ;
#72 = FACE_OUTER_BOUND ( 'NONE', #82, .T. ) ;
#73 = CARTESIAN_POINT ( 'NONE',  ( 10.00000000000000000, 10.00000000000000000, 10.00000000000000000 ) ) ;
#74 = CC_DESIGN_DATE_AND_TIME_ASSIGNMENT ( #203, #231, ( #270 ) ) ;
#75 = VECTOR ( 'NONE', #165, 1000.000000000000000 ) ;
#76 = APPROVAL_ROLE ( '' ) ;
#77 = PERSON_AND_ORGANIZATION ( #207, #47 ) ;
#78 = ADVANCED_FACE ( 'NONE', ( #199 ), #274, .F. ) ;
#79 = APPROVAL_STATUS ( 'not_yet_approved' ) ;
#80 = EDGE_CURVE ( 'NONE', #2, #12, #58, .T. ) ;
#81 = PRODUCT ( 'BK7-NPBSC-20-1200-1600', 'BK7-NPBSC-20-1200-1600', '', ( #120 ) ) ;
#82 = EDGE_LOOP ( 'NONE', ( #157, #139, #236, #88 ) ) ;
#83 = VERTEX_POINT ( 'NONE', #209 ) ;
#84 = DIRECTION ( 'NONE',  ( 1.000000000000000000, 0.000000000000000000, 0.000000000000000000 ) ) ;
#85 = ADVANCED_FACE ( 'NONE', ( #215 ), #308, .F. ) ;
#86 = DIRECTION ( 'NONE',  ( 1.000000000000000000, 0.000000000000000000, 0.000000000000000000 ) ) ;
#87 = EDGE_CURVE ( 'NONE', #70, #185, #155, .T. ) ;
#88 = ORIENTED_EDGE ( 'NONE', *, *, #80, .T. ) ;
#89 = CARTESIAN_POINT ( 'NONE',  ( 10.00000000000000000, 10.00000000000000000, 10.00000000000000000 ) ) ;
#90 = ORIENTED_EDGE ( 'NONE', *, *, #227, .T. ) ;
#91 = CARTESIAN_POINT ( 'NONE',  ( 10.00000000000000000, 10.00000000000000000, 10.00000000000000000 ) ) ;
#92 = ORIENTED_EDGE ( 'NONE', *, *, #261, .T. ) ;
#93 = CC_DESIGN_APPROVAL ( #219, ( #20 ) ) ;
#94 = AXIS2_PLACEMENT_3D ( 'NONE', #43, #188, #302 ) ;
#95 = EDGE_CURVE ( 'NONE', #115, #12, #112, .T. ) ;
#96 = LINE ( 'NONE', #238, #318 ) ;
#97 = CARTESIAN_POINT ( 'NONE',  ( 0.000000000000000000, 0.000000000000000000, 0.000000000000000000 ) ) ;
#98 = EDGE_CURVE ( 'NONE', #185, #114, #37, .T. ) ;
#99 = AXIS2_PLACEMENT_3D ( 'NONE', #104, #232, #320 ) ;
#100 = PERSON_AND_ORGANIZATION_ROLE ( 'creator' ) ;
#101 = PERSON_AND_ORGANIZATION ( #207, #47 ) ;
#102 = VECTOR ( 'NONE', #176, 1000.000000000000000 ) ;
#103 = ADVANCED_FACE ( 'NONE', ( #65 ), #241, .F. ) ;
#104 = CARTESIAN_POINT ( 'NONE',  ( 0.000000000000000000, 0.000000000000000000, -10.00000000000000000 ) ) ;
#105 = CARTESIAN_POINT ( 'NONE',  ( 10.00000000000000178, 9.999999999999998224, 10.00000000000000000 ) ) ;
#106 = CARTESIAN_POINT ( 'NONE',  ( -9.999999999999998224, 10.00000000000000355, 10.00000000000000000 ) ) ;
#107 = DESIGN_CONTEXT ( 'detailed design', #32, 'design' ) ;
#108 = ORIENTED_EDGE ( 'NONE', *, *, #254, .F. ) ;
#109 = EDGE_CURVE ( 'NONE', #141, #211, #305, .T. ) ;
#110 = DIRECTION ( 'NONE',  ( 0.000000000000000000, 1.000000000000000000, 0.000000000000000000 ) ) ;
#111 = ORIENTED_EDGE ( 'NONE', *, *, #29, .T. ) ;
#112 = LINE ( 'NONE', #4, #61 ) ;
#113 = PLANE ( 'NONE',  #22 ) ;
#114 = VERTEX_POINT ( 'NONE', #262 ) ;
#115 = VERTEX_POINT ( 'NONE', #216 ) ;
#116 = DIRECTION ( 'NONE',  ( -2.220446049250313081E-16, -1.000000000000000000, 0.000000000000000000 ) ) ;
#117 = COORDINATED_UNIVERSAL_TIME_OFFSET ( 8, 0, .AHEAD. ) ;
#118 = APPLICATION_PROTOCOL_DEFINITION ( 'international standard', 'config_control_design', 1994, #14 ) ;
#119 = CLOSED_SHELL ( 'NONE', ( #248, #146, #166, #6, #78 ) ) ;
#120 = MECHANICAL_CONTEXT ( 'NONE', #14, 'mechanical' ) ;
#121 = UNCERTAINTY_MEASURE_WITH_UNIT (LENGTH_MEASURE( 1.000000000000000082E-05 ), #11, 'distance_accuracy_value', 'NONE');
#122 = FACE_OUTER_BOUND ( 'NONE', #64, .T. ) ;
#123 = CC_DESIGN_PERSON_AND_ORGANIZATION_ASSIGNMENT ( #101, #192, ( #20 ) ) ;
#124 = AXIS2_PLACEMENT_3D ( 'NONE', #300, #230, #84 ) ;
#125 = DIRECTION ( 'NONE',  ( -0.000000000000000000, -0.000000000000000000, -1.000000000000000000 ) ) ;
#126 = LINE ( 'NONE', #196, #16 ) ;
#127 = DIRECTION ( 'NONE',  ( 0.7071067811865475727, 0.7071067811865474617, 0.000000000000000000 ) ) ;
#128 = EDGE_CURVE ( 'NONE', #2, #175, #181, .T. ) ;
#129 = APPROVAL_PERSON_ORGANIZATION ( #319, #278, #59 ) ;
#130 = CC_DESIGN_PERSON_AND_ORGANIZATION_ASSIGNMENT ( #50, #148, ( #81 ) ) ;
#131 = ORIENTED_EDGE ( 'NONE', *, *, #80, .F. ) ;
#132 = DIRECTION ( 'NONE',  ( 1.000000000000000000, 0.000000000000000000, 0.000000000000000000 ) ) ;
#133 = ORIENTED_EDGE ( 'NONE', *, *, #109, .F. ) ;
#134 = ADVANCED_FACE ( 'NONE', ( #72 ), #309, .F. ) ;
#135 = CARTESIAN_POINT ( 'NONE',  ( 0.000000000000000000, 0.000000000000000000, -10.00000000000000000 ) ) ;
#136 = ORIENTED_EDGE ( 'NONE', *, *, #51, .F. ) ;
#137 = LINE ( 'NONE', #140, #147 ) ;
#138 = VECTOR ( 'NONE', #252, 1000.000000000000000 ) ;
#139 = ORIENTED_EDGE ( 'NONE', *, *, #54, .F. ) ;
#140 = CARTESIAN_POINT ( 'NONE',  ( 10.00000000000000178, 9.999999999999998224, -10.00000000000000000 ) ) ;
#141 = VERTEX_POINT ( 'NONE', #177 ) ;
#142 = CARTESIAN_POINT ( 'NONE',  ( -9.999999999999998224, 10.00000000000000355, -10.00000000000000000 ) ) ;
#143 = DIRECTION ( 'NONE',  ( 1.000000000000000000, -2.220446049250313081E-16, 0.000000000000000000 ) ) ;
#144 = VECTOR ( 'NONE', #164, 1000.000000000000000 ) ;
#145 = FACE_OUTER_BOUND ( 'NONE', #260, .T. ) ;
#146 = ADVANCED_FACE ( 'NONE', ( #66 ), #42, .F. ) ;
#147 = VECTOR ( 'NONE', #243, 1000.000000000000000 ) ;
#148 = PERSON_AND_ORGANIZATION_ROLE ( 'design_owner' ) ;
#149 = APPLICATION_PROTOCOL_DEFINITION ( 'international standard', 'config_control_design', 1994, #32 ) ;
#150 = DIRECTION ( 'NONE',  ( -0.7071067811865475727, -0.7071067811865474617, 0.000000000000000000 ) ) ;
#151 = CARTESIAN_POINT ( 'NONE',  ( 10.00000000000000178, -10.00000000000000000, 10.00000000000000000 ) ) ;
#152 = ORIENTED_EDGE ( 'NONE', *, *, #54, .T. ) ;
#153 = DIRECTION ( 'NONE',  ( 2.220446049250313081E-16, 1.000000000000000000, 0.000000000000000000 ) ) ;
#154 = ORIENTED_EDGE ( 'NONE', *, *, #29, .F. ) ;
#155 = LINE ( 'NONE', #63, #295 ) ;
#156 = CARTESIAN_POINT ( 'NONE',  ( 10.00000000000000178, 9.999999999999998224, 10.00000000000000000 ) ) ;
#157 = ORIENTED_EDGE ( 'NONE', *, *, #15, .T. ) ;
#158 = DIRECTION ( 'NONE',  ( -0.000000000000000000, 0.000000000000000000, -1.000000000000000000 ) ) ;
#159 = LINE ( 'NONE', #263, #271 ) ;
#160 = ORIENTED_EDGE ( 'NONE', *, *, #268, .F. ) ;
#161 = LINE ( 'NONE', #247, #303 ) ;
#162 = VECTOR ( 'NONE', #35, 1000.000000000000000 ) ;
#163 = EDGE_LOOP ( 'NONE', ( #62, #240, #202 ) ) ;
#164 = DIRECTION ( 'NONE',  ( 1.000000000000000000, 0.000000000000000000, 0.000000000000000000 ) ) ;
#165 = DIRECTION ( 'NONE',  ( 1.000000000000000000, -2.220446049250313081E-16, 0.000000000000000000 ) ) ;
#166 = ADVANCED_FACE ( 'NONE', ( #218 ), #13, .F. ) ;
#167 = LOCAL_TIME ( 10, 11, 8.000000000000000000, #23 ) ;
#168 = PERSON_AND_ORGANIZATION ( #207, #47 ) ;
#169 = AXIS2_PLACEMENT_3D ( 'NONE', #97, #288, #19 ) ;
#170 =( NAMED_UNIT ( * ) SI_UNIT ( $, .STERADIAN. ) SOLID_ANGLE_UNIT ( ) );
#171 =( GEOMETRIC_REPRESENTATION_CONTEXT ( 3 ) GLOBAL_UNCERTAINTY_ASSIGNED_CONTEXT ( ( #121 ) ) GLOBAL_UNIT_ASSIGNED_CONTEXT ( ( #11, #289, #170 ) ) REPRESENTATION_CONTEXT ( 'NONE', 'WORKASPACE' ) );
#172 = CARTESIAN_POINT ( 'NONE',  ( 10.00000000000000178, 9.999999999999998224, 10.00000000000000000 ) ) ;
#173 = PRODUCT_DEFINITION ( 'UNKNOWN', '', #20, #107 ) ;
#174 = LINE ( 'NONE', #234, #286 ) ;
#175 = VERTEX_POINT ( 'NONE', #156 ) ;
#176 = DIRECTION ( 'NONE',  ( 1.000000000000000000, -2.220446049250313081E-16, 0.000000000000000000 ) ) ;
#177 = CARTESIAN_POINT ( 'NONE',  ( -10.00000000000000178, -9.999999999999996447, 10.00000000000000000 ) ) ;
#178 = EDGE_CURVE ( 'NONE', #31, #2, #312, .T. ) ;
#179 = ORIENTED_EDGE ( 'NONE', *, *, #178, .F. ) ;
#180 = DIRECTION ( 'NONE',  ( 0.000000000000000000, -0.000000000000000000, 1.000000000000000000 ) ) ;
#181 = LINE ( 'NONE', #280, #279 ) ;
#182 = ORIENTED_EDGE ( 'NONE', *, *, #205, .T. ) ;
#183 = MANIFOLD_SOLID_BREP ( 'Í¹Ì¨-À', #49 ) ;
#184 = CARTESIAN_POINT ( 'NONE',  ( -9.999999999999998224, -10.00000000000000000, 10.00000000000000000 ) ) ;
#185 = VERTEX_POINT ( 'NONE', #142 ) ;
#186 = LINE ( 'NONE', #73, #75 ) ;
#187 = PRODUCT_RELATED_PRODUCT_CATEGORY ( 'detail', '', ( #81 ) ) ;
#188 = DIRECTION ( 'NONE',  ( -1.000000000000000000, 0.000000000000000000, 0.000000000000000000 ) ) ;
#189 = COORDINATED_UNIVERSAL_TIME_OFFSET ( 8, 0, .AHEAD. ) ;
#190 = PERSON_AND_ORGANIZATION ( #207, #47 ) ;
#191 = CC_DESIGN_DATE_AND_TIME_ASSIGNMENT ( #249, #287, ( #173 ) ) ;
#192 = PERSON_AND_ORGANIZATION_ROLE ( 'design_supplier' ) ;
#193 = PERSON_AND_ORGANIZATION ( #207, #47 ) ;
#194 = PERSON_AND_ORGANIZATION_ROLE ( 'classification_officer' ) ;
#195 = APPROVAL_PERSON_ORGANIZATION ( #168, #219, #18 ) ;
#196 = CARTESIAN_POINT ( 'NONE',  ( 10.00000000000000178, 9.999999999999998224, 10.00000000000000000 ) ) ;
#197 = CC_DESIGN_PERSON_AND_ORGANIZATION_ASSIGNMENT ( #193, #194, ( #270 ) ) ;
#198 = CALENDAR_DATE ( 2020, 22, 12 ) ;
#199 = FACE_OUTER_BOUND ( 'NONE', #163, .T. ) ;
#200 = EDGE_CURVE ( 'NONE', #31, #115, #281, .T. ) ;
#201 = DATE_AND_TIME ( #198, #220 ) ;
#202 = ORIENTED_EDGE ( 'NONE', *, *, #98, .T. ) ;
#203 = DATE_AND_TIME ( #26, #239 ) ;
#204 = ORIENTED_EDGE ( 'NONE', *, *, #261, .F. ) ;
#205 = EDGE_CURVE ( 'NONE', #256, #141, #96, .T. ) ;
#206 = DIRECTION ( 'NONE',  ( -0.7071067811865475727, -0.7071067811865474617, 0.000000000000000000 ) ) ;
#207 = PERSON ( 'UNSPECIFIED', 'UNSPECIFIED', 'UNSPECIFIED', ('UNSPECIFIED'), ('UNSPECIFIED'), ('UNSPECIFIED') ) ;
#208 = ORIENTED_EDGE ( 'NONE', *, *, #98, .F. ) ;
#209 = CARTESIAN_POINT ( 'NONE',  ( 10.00000000000000178, 9.999999999999998224, -10.00000000000000000 ) ) ;
#210 = CARTESIAN_POINT ( 'NONE',  ( -10.00000000000000178, -9.999999999999996447, -10.00000000000000000 ) ) ;
#211 = VERTEX_POINT ( 'NONE', #210 ) ;
#212 = CARTESIAN_POINT ( 'NONE',  ( 10.00000000000000000, 10.00000000000000000, -10.00000000000000000 ) ) ;
#213 = AXIS2_PLACEMENT_3D ( 'NONE', #91, #116, #221 ) ;
#214 = DIRECTION ( 'NONE',  ( -0.7071067811865474617, 0.7071067811865475727, 0.000000000000000000 ) ) ;
#215 = FACE_OUTER_BOUND ( 'NONE', #217, .T. ) ;
#216 = CARTESIAN_POINT ( 'NONE',  ( -9.999999999999998224, -10.00000000000000000, -10.00000000000000000 ) ) ;
#217 = EDGE_LOOP ( 'NONE', ( #160, #282, #284 ) ) ;
#218 = FACE_OUTER_BOUND ( 'NONE', #235, .T. ) ;
#219 = APPROVAL ( #79, 'UNSPECIFIED' ) ;
#220 = LOCAL_TIME ( 10, 11, 8.000000000000000000, #275 ) ;
#221 = DIRECTION ( 'NONE',  ( 0.000000000000000000, 0.000000000000000000, 1.000000000000000000 ) ) ;
#222 = APPROVAL_DATE_TIME ( #228, #34 ) ;
#223 = DATE_AND_TIME ( #269, #39 ) ;
#224 = CC_DESIGN_APPROVAL ( #278, ( #270 ) ) ;
#225 = AXIS2_PLACEMENT_3D ( 'NONE', #135, #237, #86 ) ;
#226 = CARTESIAN_POINT ( 'NONE',  ( 10.00000000000000178, -10.00000000000000000, 10.00000000000000000 ) ) ;
#227 = EDGE_CURVE ( 'NONE', #70, #256, #186, .T. ) ;
#228 = DATE_AND_TIME ( #315, #167 ) ;
#229 = DIRECTION ( 'NONE',  ( 0.7071067811865474617, -0.7071067811865475727, 0.000000000000000000 ) ) ;
#230 = DIRECTION ( 'NONE',  ( -0.000000000000000000, 0.000000000000000000, 1.000000000000000000 ) ) ;
#231 = DATE_TIME_ROLE ( 'classification_date' ) ;
#232 = DIRECTION ( 'NONE',  ( 0.000000000000000000, -0.000000000000000000, 1.000000000000000000 ) ) ;
#233 = VECTOR ( 'NONE', #150, 1000.000000000000000 ) ;
#234 = CARTESIAN_POINT ( 'NONE',  ( 10.00000000000000178, 9.999999999999998224, -10.00000000000000000 ) ) ;
#235 = EDGE_LOOP ( 'NONE', ( #208, #307, #90, #92 ) ) ;
#236 = ORIENTED_EDGE ( 'NONE', *, *, #128, .F. ) ;
#237 = DIRECTION ( 'NONE',  ( -0.000000000000000000, 0.000000000000000000, 1.000000000000000000 ) ) ;
#238 = CARTESIAN_POINT ( 'NONE',  ( 10.00000000000000000, 10.00000000000000000, 10.00000000000000000 ) ) ;
#239 = LOCAL_TIME ( 10, 11, 8.000000000000000000, #290 ) ;
#240 = ORIENTED_EDGE ( 'NONE', *, *, #254, .T. ) ;
#241 = PLANE ( 'NONE',  #285 ) ;
#242 = VECTOR ( 'NONE', #125, 1000.000000000000000 ) ;
#243 = DIRECTION ( 'NONE',  ( -0.7071067811865475727, -0.7071067811865474617, 0.000000000000000000 ) ) ;
#244 = ORIENTED_EDGE ( 'NONE', *, *, #200, .F. ) ;
#245 = CARTESIAN_POINT ( 'NONE',  ( -10.00000000000000178, -9.999999999999996447, 10.00000000000000000 ) ) ;
#246 = PLANE ( 'NONE',  #55 ) ;
#247 = CARTESIAN_POINT ( 'NONE',  ( -10.00000000000000178, -9.999999999999996447, -10.00000000000000000 ) ) ;
#248 = ADVANCED_FACE ( 'NONE', ( #266 ), #113, .F. ) ;
#249 = DATE_AND_TIME ( #316, #264 ) ;
#250 = PERSON_AND_ORGANIZATION_ROLE ( 'creator' ) ;
#251 = CARTESIAN_POINT ( 'NONE',  ( 0.000000000000000000, 0.000000000000000000, 10.00000000000000000 ) ) ;
#252 = DIRECTION ( 'NONE',  ( -0.000000000000000000, -0.000000000000000000, -1.000000000000000000 ) ) ;
#253 = FACE_OUTER_BOUND ( 'NONE', #257, .T. ) ;
#254 = EDGE_CURVE ( 'NONE', #211, #185, #161, .T. ) ;
#255 = VECTOR ( 'NONE', #158, 1000.000000000000000 ) ;
#256 = VERTEX_POINT ( 'NONE', #89 ) ;
#257 = EDGE_LOOP ( 'NONE', ( #111, #310, #5 ) ) ;
#258 = CARTESIAN_POINT ( 'NONE',  ( -9.999999999999998224, -10.00000000000000000, 10.00000000000000000 ) ) ;
#259 = DIRECTION ( 'NONE',  ( 0.000000000000000000, 0.000000000000000000, 1.000000000000000000 ) ) ;
#260 = EDGE_LOOP ( 'NONE', ( #60, #265, #136 ) ) ;
#261 = EDGE_CURVE ( 'NONE', #256, #114, #159, .T. ) ;
#262 = CARTESIAN_POINT ( 'NONE',  ( 10.00000000000000000, 10.00000000000000000, -10.00000000000000000 ) ) ;
#263 = CARTESIAN_POINT ( 'NONE',  ( 10.00000000000000000, 10.00000000000000000, 10.00000000000000000 ) ) ;
#264 = LOCAL_TIME ( 10, 11, 8.000000000000000000, #189 ) ;
#265 = ORIENTED_EDGE ( 'NONE', *, *, #227, .F. ) ;
#266 = FACE_OUTER_BOUND ( 'NONE', #299, .T. ) ;
#267 = APPROVAL_STATUS ( 'not_yet_approved' ) ;
#268 = EDGE_CURVE ( 'NONE', #83, #115, #137, .T. ) ;
#269 = CALENDAR_DATE ( 2020, 22, 12 ) ;
#270 = SECURITY_CLASSIFICATION ( '', '', #21 ) ;
#271 = VECTOR ( 'NONE', #38, 1000.000000000000000 ) ;
#272 = CARTESIAN_POINT ( 'NONE',  ( -10.00000000000000178, -9.999999999999996447, 10.00000000000000000 ) ) ;
#273 = AXIS2_PLACEMENT_3D ( 'NONE', #245, #143, #259 ) ;
#274 = PLANE ( 'NONE',  #99 ) ;
#275 = COORDINATED_UNIVERSAL_TIME_OFFSET ( 8, 0, .AHEAD. ) ;
#276 = LINE ( 'NONE', #272, #40 ) ;
#277 = EDGE_LOOP ( 'NONE', ( #108, #133, #36, #3 ) ) ;
#278 = APPROVAL ( #298, 'UNSPECIFIED' ) ;
#279 = VECTOR ( 'NONE', #68, 1000.000000000000000 ) ;
#280 = CARTESIAN_POINT ( 'NONE',  ( 10.00000000000000178, 9.999999999999998224, 10.00000000000000000 ) ) ;
#281 = LINE ( 'NONE', #311, #162 ) ;
#282 = ORIENTED_EDGE ( 'NONE', *, *, #15, .F. ) ;
#283 = CARTESIAN_POINT ( 'NONE',  ( 10.00000000000000000, 10.00000000000000000, 10.00000000000000000 ) ) ;
#284 = ORIENTED_EDGE ( 'NONE', *, *, #95, .F. ) ;
#285 = AXIS2_PLACEMENT_3D ( 'NONE', #258, #110, #180 ) ;
#286 = VECTOR ( 'NONE', #25, 1000.000000000000000 ) ;
#287 = DATE_TIME_ROLE ( 'creation_date' ) ;
#288 = DIRECTION ( 'NONE',  ( 0.000000000000000000, 0.000000000000000000, 1.000000000000000000 ) ) ;
#289 =( NAMED_UNIT ( * ) PLANE_ANGLE_UNIT ( ) SI_UNIT ( $, .RADIAN. ) );
#290 = COORDINATED_UNIVERSAL_TIME_OFFSET ( 8, 0, .AHEAD. ) ;
#291 = MANIFOLD_SOLID_BREP ( '¾µÏ', #119 ) ;
#292 = DIRECTION ( 'NONE',  ( 2.220446049250313081E-16, 1.000000000000000000, 0.000000000000000000 ) ) ;
#293 = LINE ( 'NONE', #53, #233 ) ;
#294 = PRODUCT_DEFINITION_SHAPE ( 'NONE', 'NONE',  #173 ) ;
#295 = VECTOR ( 'NONE', #33, 1000.000000000000000 ) ;
#296 = SHAPE_DEFINITION_REPRESENTATION ( #294, #8 ) ;
#297 = ORIENTED_EDGE ( 'NONE', *, *, #71, .F. ) ;
#298 = APPROVAL_STATUS ( 'not_yet_approved' ) ;
#299 = EDGE_LOOP ( 'NONE', ( #297, #204, #182, #304 ) ) ;
#300 = CARTESIAN_POINT ( 'NONE',  ( 0.000000000000000000, 0.000000000000000000, 10.00000000000000000 ) ) ;
#301 = ORIENTED_EDGE ( 'NONE', *, *, #95, .T. ) ;
#302 = DIRECTION ( 'NONE',  ( 0.000000000000000000, 0.000000000000000000, 1.000000000000000000 ) ) ;
#303 = VECTOR ( 'NONE', #45, 1000.000000000000000 ) ;
#304 = ORIENTED_EDGE ( 'NONE', *, *, #109, .T. ) ;
#305 = LINE ( 'NONE', #10, #255 ) ;
#306 = DIRECTION ( 'NONE',  ( 0.7071067811865475727, 0.7071067811865474617, 0.000000000000000000 ) ) ;
#307 = ORIENTED_EDGE ( 'NONE', *, *, #87, .F. ) ;
#308 = PLANE ( 'NONE',  #225 ) ;
#309 = PLANE ( 'NONE',  #94 ) ;
#310 = ORIENTED_EDGE ( 'NONE', *, *, #178, .T. ) ;
#311 = CARTESIAN_POINT ( 'NONE',  ( -9.999999999999998224, -10.00000000000000000, 10.00000000000000000 ) ) ;
#312 = LINE ( 'NONE', #184, #144 ) ;
#313 = CC_DESIGN_APPROVAL ( #34, ( #173 ) ) ;
#314 = APPROVAL_DATE_TIME ( #223, #219 ) ;
#315 = CALENDAR_DATE ( 2020, 22, 12 ) ;
#316 = CALENDAR_DATE ( 2020, 22, 12 ) ;
#317 = CC_DESIGN_SECURITY_CLASSIFICATION ( #270, ( #20 ) ) ;
#318 = VECTOR ( 'NONE', #7, 1000.000000000000000 ) ;
#319 = PERSON_AND_ORGANIZATION ( #207, #47 ) ;
#320 = DIRECTION ( 'NONE',  ( 2.220446049250313081E-16, 1.000000000000000000, 0.000000000000000000 ) ) ;
#321 = PLANE ( 'NONE',  #124 ) ;
ENDSEC;
END-ISO-10303-21;
